  0
SECTION
  2
HEADER
  9
$ACADVER
  1
AC1015
  9
$ACADMAINTVER
 70
     6
  9
$DWGCODEPAGE
  3
ANSI_1254
  9
$INSBASE
 10
0.0
 20
0.0
 30
0.0
  9
$EXTMIN
 10
0.0
 20
0.0
 30
0.0
  9
$EXTMAX
 10
279.4
 20
215.9
 30
0.0
  9
$LIMMIN
 10
0.0
 20
0.0
  9
$LIMMAX
 10
279.4
 20
215.9
  9
$ORTHOMODE
 70
     0
  9
$REGENMODE
 70
     1
  9
$FILLMODE
 70
     1
  9
$QTEXTMODE
 70
     0
  9
$MIRRTEXT
 70
     1
  9
$LTSCALE
 40
1.0
  9
$ATTMODE
 70
     1
  9
$TEXTSIZE
 40
3.5
  9
$TRACEWID
 40
1.0
  9
$TEXTSTYLE
  7
Standard
  9
$CLAYER
  8
0
  9
$CELTYPE
  6
ByLayer
  9
$CECOLOR
 62
   256
  9
$CELTSCALE
 40
1.0
  9
$DISPSILH
 70
     0
  9
$DIMSCALE
 40
1.0
  9
$DIMASZ
 40
3.5
  9
$DIMEXO
 40
1.0
  9
$DIMDLI
 40
3.75
  9
$DIMRND
 40
0.0
  9
$DIMDLE
 40
0.0
  9
$DIMEXE
 40
1.0
  9
$DIMTP
 40
0.0
  9
$DIMTM
 40
0.0
  9
$DIMTXT
 40
3.5
  9
$DIMCEN
 40
2.5
  9
$DIMTSZ
 40
0.0
  9
$DIMTOL
 70
     0
  9
$DIMLIM
 70
     0
  9
$DIMTIH
 70
     1
  9
$DIMTOH
 70
     1
  9
$DIMSE1
 70
     0
  9
$DIMSE2
 70
     0
  9
$DIMTAD
 70
     1
  9
$DIMZIN
 70
     0
  9
$DIMBLK
  1

  9
$DIMASO
 70
     1
  9
$DIMSHO
 70
     1
  9
$DIMPOST
  1

  9
$DIMAPOST
  1

  9
$DIMALT
 70
     0
  9
$DIMALTD
 70
     3
  9
$DIMALTF
 40
0.0393700787
  9
$DIMLFAC
 40
1.0
  9
$DIMTOFL
 70
     1
  9
$DIMTVP
 40
0.0
  9
$DIMTIX
 70
     0
  9
$DIMSOXD
 70
     0
  9
$DIMSAH
 70
     0
  9
$DIMBLK1
  1

  9
$DIMBLK2
  1

  9
$DIMSTYLE
  2
ISO-25
  9
$DIMCLRD
 70
     0
  9
$DIMCLRE
 70
     0
  9
$DIMCLRT
 70
     0
  9
$DIMTFAC
 40
1.0
  9
$DIMGAP
 40
1.524
  9
$DIMJUST
 70
     0
  9
$DIMSD1
 70
     0
  9
$DIMSD2
 70
     0
  9
$DIMTOLJ
 70
     0
  9
$DIMTZIN
 70
     0
  9
$DIMALTZ
 70
     0
  9
$DIMALTTZ
 70
     0
  9
$DIMUPT
 70
     0
  9
$DIMDEC
 70
     2
  9
$DIMTDEC
 70
     2
  9
$DIMALTU
 70
     2
  9
$DIMALTTD
 70
     3
  9
$DIMTXSTY
  7
Standard
  9
$DIMAUNIT
 70
     0
  9
$DIMADEC
 70
     2
  9
$DIMALTRND
 40
0.0
  9
$DIMAZIN
 70
     0
  9
$DIMDSEP
 70
    44
  9
$DIMATFIT
 70
     3
  9
$DIMFRAC
 70
     0
  9
$DIMLDRBLK
  1

  9
$DIMLUNIT
 70
     2
  9
$DIMLWD
 70
    -2
  9
$DIMLWE
 70
    -2
  9
$DIMTMOVE
 70
     0
  9
$LUNITS
 70
     2
  9
$LUPREC
 70
     2
  9
$SKETCHINC
 40
1.0
  9
$FILLETRAD
 40
10.0
  9
$AUNITS
 70
     0
  9
$AUPREC
 70
     2
  9
$MENU
  1
.
  9
$ELEVATION
 40
0.0
  9
$PELEVATION
 40
0.0
  9
$THICKNESS
 40
0.0
  9
$LIMCHECK
 70
     0
  9
$CHAMFERA
 40
0.0
  9
$CHAMFERB
 40
0.0
  9
$CHAMFERC
 40
0.0
  9
$CHAMFERD
 40
0.0
  9
$SKPOLY
 70
     0
  9
$TDCREATE
 40
2459741.606177708
  9
$TDUCREATE
 40
2459741.481177708
  9
$TDUPDATE
 40
2459741.606177882
  9
$TDUUPDATE
 40
2459741.481177882
  9
$TDINDWG
 40
0.0000000116
  9
$TDUSRTIMER
 40
0.0000000116
  9
$USRTIMER
 70
     1
  9
$ANGBASE
 50
0.0
  9
$ANGDIR
 70
     0
  9
$PDMODE
 70
     0
  9
$PDSIZE
 40
-1.0
  9
$PLINEWID
 40
0.0
  9
$SPLFRAME
 70
     0
  9
$SPLINETYPE
 70
     6
  9
$SPLINESEGS
 70
     8
  9
$HANDSEED
  5
102
  9
$SURFTAB1
 70
     6
  9
$SURFTAB2
 70
     6
  9
$SURFTYPE
 70
     6
  9
$SURFU
 70
     6
  9
$SURFV
 70
     6
  9
$UCSBASE
  2

  9
$UCSNAME
  2

  9
$UCSORG
 10
0.0
 20
0.0
 30
0.0
  9
$UCSXDIR
 10
1.0
 20
0.0
 30
0.0
  9
$UCSYDIR
 10
0.0
 20
1.0
 30
0.0
  9
$UCSORTHOREF
  2

  9
$UCSORTHOVIEW
 70
     0
  9
$UCSORGTOP
 10
0.0
 20
0.0
 30
0.0
  9
$UCSORGBOTTOM
 10
0.0
 20
0.0
 30
0.0
  9
$UCSORGLEFT
 10
0.0
 20
0.0
 30
0.0
  9
$UCSORGRIGHT
 10
0.0
 20
0.0
 30
0.0
  9
$UCSORGFRONT
 10
0.0
 20
0.0
 30
0.0
  9
$UCSORGBACK
 10
0.0
 20
0.0
 30
0.0
  9
$PUCSBASE
  2

  9
$PUCSNAME
  2

  9
$PUCSORG
 10
0.0
 20
0.0
 30
0.0
  9
$PUCSXDIR
 10
1.0
 20
0.0
 30
0.0
  9
$PUCSYDIR
 10
0.0
 20
1.0
 30
0.0
  9
$PUCSORTHOREF
  2

  9
$PUCSORTHOVIEW
 70
     0
  9
$PUCSORGTOP
 10
0.0
 20
0.0
 30
0.0
  9
$PUCSORGBOTTOM
 10
0.0
 20
0.0
 30
0.0
  9
$PUCSORGLEFT
 10
0.0
 20
0.0
 30
0.0
  9
$PUCSORGRIGHT
 10
0.0
 20
0.0
 30
0.0
  9
$PUCSORGFRONT
 10
0.0
 20
0.0
 30
0.0
  9
$PUCSORGBACK
 10
0.0
 20
0.0
 30
0.0
  9
$USERI1
 70
     0
  9
$USERI2
 70
     0
  9
$USERI3
 70
     0
  9
$USERI4
 70
     0
  9
$USERI5
 70
     0
  9
$USERR1
 40
0.0
  9
$USERR2
 40
0.0
  9
$USERR3
 40
0.0
  9
$USERR4
 40
0.0
  9
$USERR5
 40
0.0
  9
$WORLDVIEW
 70
     1
  9
$SHADEDGE
 70
     3
  9
$SHADEDIF
 70
    70
  9
$TILEMODE
 70
     1
  9
$MAXACTVP
 70
    64
  9
$PINSBASE
 10
0.0
 20
0.0
 30
0.0
  9
$PLIMCHECK
 70
     0
  9
$PEXTMIN
 10
1.0000000000E+20
 20
1.0000000000E+20
 30
1.0000000000E+20
  9
$PEXTMAX
 10
-1.0000000000E+20
 20
-1.0000000000E+20
 30
-1.0000000000E+20
  9
$PLIMMIN
 10
0.0
 20
0.0
  9
$PLIMMAX
 10
420.0
 20
297.0
  9
$UNITMODE
 70
     0
  9
$VISRETAIN
 70
     1
  9
$PLINEGEN
 70
     0
  9
$PSLTSCALE
 70
     1
  9
$TREEDEPTH
 70
  3020
  9
$CMLSTYLE
  2
Standard
  9
$CMLJUST
 70
     0
  9
$CMLSCALE
 40
20.0
  9
$PROXYGRAPHICS
 70
     1
  9
$MEASUREMENT
 70
     1
  9
$CELWEIGHT
370
    -1
  9
$ENDCAPS
280
     0
  9
$JOINSTYLE
280
     0
  9
$LWDISPLAY
290
     1
  9
$INSUNITS
 70
     4
  9
$HYPERLINKBASE
  1

  9
$STYLESHEET
  1

  9
$XEDIT
290
     1
  9
$CEPSNTYPE
380
     0
  9
$PSTYLEMODE
290
     1
  9
$FINGERPRINTGUID
  2
{d08e95cc-196c-4838-98df-dc885642f034}
  9
$VERSIONGUID
  2
{FAEB1C32-E019-11D5-929B-00C0DF256EC4}
  9
$EXTNAMES
290
     1
  9
$PSVPSCALE
 40
0.0
  9
$OLESTARTUP
290
     0
  0
ENDSEC
  0
SECTION
  2
CLASSES
  0
CLASS
  1
ACDBDICTIONARYWDFLT
  2
AcDbDictionaryWithDefault
  3
ObjectDBX Classes
 90
        0
280
     0
281
     0
  0
CLASS
  1
VISUALSTYLE
  2
AcDbVisualStyle
  3
ObjectDBX Classes
 90
     4095
280
     0
281
     0
  0
CLASS
  1
MATERIAL
  2
AcDbMaterial
  3
ObjectDBX Classes
 90
     1153
280
     0
281
     0
  0
CLASS
  1
SCALE
  2
AcDbScale
  3
ObjectDBX Classes
 90
     1153
280
     0
281
     0
  0
CLASS
  1
TABLESTYLE
  2
AcDbTableStyle
  3
ObjectDBX Classes
 90
     4095
280
     0
281
     0
  0
CLASS
  1
MLEADERSTYLE
  2
AcDbMLeaderStyle
  3
ACDB_MLEADERSTYLE_CLASS
 90
     4095
280
     0
281
     0
  0
CLASS
  1
SUN
  2
AcDbSun
  3
SCENEOE
 90
     1153
280
     0
281
     0
  0
CLASS
  1
ACDBPLACEHOLDER
  2
AcDbPlaceHolder
  3
ObjectDBX Classes
 90
        0
280
     0
281
     0
  0
CLASS
  1
LAYOUT
  2
AcDbLayout
  3
ObjectDBX Classes
 90
        0
280
     0
281
     0
  0
ENDSEC
  0
SECTION
  2
TABLES
  0
TABLE
  2
VPORT
  5
8
330
0
100
AcDbSymbolTable
 70
     1
  0
VPORT
  5
29
330
8
100
AcDbSymbolTableRecord
100
AcDbViewportTableRecord
  2
*Active
 70
     0
 10
0.0
 20
0.0
 11
1.0
 21
1.0
 12
139.7
 22
107.95
 13
0.0
 23
0.0
 14
10.0
 24
10.0
 15
10.0
 25
10.0
 16
0.0
 26
0.0
 36
1.0
 17
0.0
 27
0.0
 37
0.0
 40
215.9
 41
1.2941176471
 42
50.0
 43
0.0
 44
0.0
 50
0.0
 51
0.0
 71
     0
 72
  2000
 73
     1
 74
     3
 75
     0
 76
     0
 77
     0
 78
     0
281
     0
 65
     1
110
0.0
120
0.0
130
0.0
111
1.0
121
0.0
131
0.0
112
0.0
122
1.0
132
0.0
 79
     0
146
0.0
  0
ENDTAB
  0
TABLE
  2
LTYPE
  5
5
330
0
100
AcDbSymbolTable
 70
     6
  0
LTYPE
  5
14
330
5
100
AcDbSymbolTableRecord
100
AcDbLinetypeTableRecord
  2
ByBlock
 70
     0
  3

 72
    65
 73
     0
 40
0.0
  0
LTYPE
  5
15
330
5
100
AcDbSymbolTableRecord
100
AcDbLinetypeTableRecord
  2
ByLayer
 70
     0
  3

 72
    65
 73
     0
 40
0.0
  0
LTYPE
  5
16
330
5
100
AcDbSymbolTableRecord
100
AcDbLinetypeTableRecord
  2
Continuous
 70
     0
  3
Solid line
 72
    65
 73
     0
 40
0.0
  0
LTYPE
  5
6E
330
5
100
AcDbSymbolTableRecord
100
AcDbLinetypeTableRecord
  2
HIDDEN
 70
     0
  3
Hidden __ __ __ __ __ __ __ __ __ __ __ __ __ __
 72
    65
 73
     2
 40
1.905
 49
1.27
 74
     0
 49
-0.635
 74
     0
  0
LTYPE
  5
6F
330
5
100
AcDbSymbolTableRecord
100
AcDbLinetypeTableRecord
  2
PHANTOM
 70
     0
  3
Phantom ______  __  __  ______  __  __  ______
 72
    65
 73
     6
 40
12.7
 49
6.35
 74
     0
 49
-1.27
 74
     0
 49
1.27
 74
     0
 49
-1.27
 74
     0
 49
1.27
 74
     0
 49
-1.27
 74
     0
  0
LTYPE
  5
70
330
5
100
AcDbSymbolTableRecord
100
AcDbLinetypeTableRecord
  2
CENTER
 70
     0
  3
Center ____ _ ____ _ ____ _ ____ _ ____ _ ____
 72
    65
 73
     4
 40
10.16
 49
6.35
 74
     0
 49
-1.27
 74
     0
 49
1.27
 74
     0
 49
-1.27
 74
     0
  0
LTYPE
  5
71
330
5
100
AcDbSymbolTableRecord
100
AcDbLinetypeTableRecord
  2
CENTERX2
 70
     0
  3
Center (2x) ________  __  ________  __  _____
 72
    65
 73
     4
 40
20.32
 49
12.7
 74
     0
 49
-2.54
 74
     0
 49
2.54
 74
     0
 49
-2.54
 74
     0
  0
LTYPE
  5
72
330
5
100
AcDbSymbolTableRecord
100
AcDbLinetypeTableRecord
  2
DOT2
 70
     0
  3
Dot (.5x) ........................................
 72
    65
 73
     2
 40
0.635
 49
0.0
 74
     0
 49
-0.635
 74
     0
  0
ENDTAB
  0
TABLE
  2
LAYER
  5
2
330
0
100
AcDbSymbolTable
 70
    17
  0
LAYER
  5
10
330
2
100
AcDbSymbolTableRecord
100
AcDbLayerTableRecord
  2
0
 70
     0
 62
     7
  6
Continuous
370
    -3
390
F
  0
LAYER
  5
73
330
2
100
AcDbSymbolTableRecord
100
AcDbLayerTableRecord
  2
FORMAT
 70
     0
 62
     7
  6
Continuous
370
    -3
390
F
  0
LAYER
  5
74
330
2
100
AcDbSymbolTableRecord
100
AcDbLayerTableRecord
  2
YARDIMCI_GEOMETRI
 70
     0
 62
    -6
  6
Continuous
290
     0
370
    -3
390
F
  0
LAYER
  5
75
330
2
100
AcDbSymbolTableRecord
100
AcDbLayerTableRecord
  2
SAYFA_CERCEVESI
 70
     0
 62
     7
  6
Continuous
370
    25
390
F
  0
LAYER
  5
76
330
2
100
AcDbSymbolTableRecord
100
AcDbLayerTableRecord
  2
ANTET
 70
     0
 62
     7
  6
Continuous
370
    -3
390
F
  0
LAYER
  5
77
330
2
100
AcDbSymbolTableRecord
100
AcDbLayerTableRecord
  2
OLCU
 70
     0
 62
   150
  6
Continuous
370
    -3
390
F
  0
LAYER
  5
78
330
2
100
AcDbSymbolTableRecord
100
AcDbLayerTableRecord
  2
METIN
 70
     0
 62
    96
  6
Continuous
370
    -3
390
F
  0
LAYER
  5
79
330
2
100
AcDbSymbolTableRecord
100
AcDbLayerTableRecord
  2
BALON
 70
     0
 62
     5
  6
Continuous
370
    -3
390
F
  0
LAYER
  5
7A
330
2
100
AcDbSymbolTableRecord
100
AcDbLayerTableRecord
  2
VURGU
 70
     0
 62
     7
  6
Continuous
370
    -3
390
F
  0
LAYER
  5
7B
330
2
100
AcDbSymbolTableRecord
100
AcDbLayerTableRecord
  2
SILIK
 70
     0
 62
     7
  6
Continuous
370
    -3
390
F
  0
LAYER
  5
7C
330
2
100
AcDbSymbolTableRecord
100
AcDbLayerTableRecord
  2
MODEL
 70
     0
 62
     7
  6
Continuous
370
    -3
390
F
  0
LAYER
  5
7D
330
2
100
AcDbSymbolTableRecord
100
AcDbLayerTableRecord
  2
DETAYLANDıRMA
 70
     0
 62
   190
  6
Continuous
370
    -3
390
F
  0
LAYER
  5
7E
330
2
100
AcDbSymbolTableRecord
100
AcDbLayerTableRecord
  2
TOLERANS
 70
     0
 62
   230
  6
Continuous
370
    -3
390
F
  0
LAYER
  5
7F
330
2
100
AcDbSymbolTableRecord
100
AcDbLayerTableRecord
  2
MERKEZ_CIZGILERI
 70
     0
 62
    30
  6
Continuous
370
    -3
390
F
  0
LAYER
  5
80
330
2
100
AcDbSymbolTableRecord
100
AcDbLayerTableRecord
  2
KESIT-DETAY_CIZGILERI
 70
     0
 62
     7
  6
Continuous
370
    -3
390
F
  0
LAYER
  5
81
330
2
100
AcDbSymbolTableRecord
100
AcDbLayerTableRecord
  2
\U+041E\U+0421\U+0415\U+0412\U+042B\U+0415
 70
     0
 62
     7
  6
Continuous
370
    -3
390
F
  0
LAYER
  5
82
330
2
100
AcDbSymbolTableRecord
100
AcDbLayerTableRecord
  2
\U+0412\U+041E\U+0414\U+042F\U+041D\U+042B\U+0415_\U+0417\U+041D\U+0410\U+041A\U+0418
 70
     0
 62
    11
  6
Continuous
370
    -3
390
F
  0
ENDTAB
  0
TABLE
  2
STYLE
  5
3
330
0
100
AcDbSymbolTable
 70
     1
  0
STYLE
  5
11
330
3
100
AcDbSymbolTableRecord
100
AcDbTextStyleTableRecord
  2
Standard
 70
     0
 40
0.0
 41
1.0
 50
0.0
 71
     0
 42
3.5
  3
txt
  4

  0
ENDTAB
  0
TABLE
  2
VIEW
  5
6
330
0
100
AcDbSymbolTable
 70
     0
  0
ENDTAB
  0
TABLE
  2
UCS
  5
7
330
0
100
AcDbSymbolTable
 70
     0
  0
ENDTAB
  0
TABLE
  2
APPID
  5
9
330
0
100
AcDbSymbolTable
 70
     1
  0
APPID
  5
12
330
9
100
AcDbSymbolTableRecord
100
AcDbRegAppTableRecord
  2
ACAD
 70
     0
  0
ENDTAB
  0
TABLE
  2
DIMSTYLE
  5
A
330
0
100
AcDbSymbolTable
 70
     1
100
AcDbDimStyleTable
  0
DIMSTYLE
105
27
330
A
100
AcDbSymbolTableRecord
100
AcDbDimStyleTableRecord
  2
ISO-25
 70
     0
 41
2.5
 42
0.625
 43
3.75
 44
1.25
 73
     0
 74
     0
 77
     1
 78
     8
140
2.5
141
2.5
143
0.0393700787
147
0.625
171
     3
172
     1
178
     0
271
     2
272
     2
274
     3
278
    44
283
     0
284
     8
340
11
  0
ENDTAB
  0
TABLE
  2
BLOCK_RECORD
  5
1
330
0
100
AcDbSymbolTable
 70
     5
  0
BLOCK_RECORD
  5
1F
330
1
100
AcDbSymbolTableRecord
100
AcDbBlockTableRecord
  2
*Model_Space
340
22
  0
BLOCK_RECORD
  5
1B
330
1
100
AcDbSymbolTableRecord
100
AcDbBlockTableRecord
  2
*Paper_Space
340
1E
  0
BLOCK_RECORD
  5
23
330
1
100
AcDbSymbolTableRecord
100
AcDbBlockTableRecord
  2
*Paper_Space0
340
26
  0
BLOCK_RECORD
  5
8B
330
1
100
AcDbSymbolTableRecord
100
AcDbBlockTableRecord
  2
SW_CENTERMARKSYMBOL_0
340
0
102
{BLKREFS
331
96
102
}
  0
BLOCK_RECORD
  5
A9
330
1
100
AcDbSymbolTableRecord
100
AcDbBlockTableRecord
  2
SW_CENTERMARKSYMBOL_1
340
0
102
{BLKREFS
331
B4
102
}
  0
BLOCK_RECORD
  5
D9
330
1
100
AcDbSymbolTableRecord
100
AcDbBlockTableRecord
  2
SW_CENTERMARKSYMBOL_2
340
0
102
{BLKREFS
331
E4
102
}
  0
BLOCK_RECORD
  5
E5
330
1
100
AcDbSymbolTableRecord
100
AcDbBlockTableRecord
  2
SW_CENTERMARKSYMBOL_3
340
0
102
{BLKREFS
331
F0
102
}
  0
ENDTAB
  0
ENDSEC
  0
SECTION
  2
BLOCKS
  0
BLOCK
  5
20
330
1F
100
AcDbEntity
  8
0
100
AcDbBlockBegin
  2
*Model_Space
 70
     0
 10
0.0
 20
0.0
 30
0.0
  3
*Model_Space
  1

  0
ENDBLK
  5
21
330
1F
100
AcDbEntity
  8
0
100
AcDbBlockEnd
  0
BLOCK
  5
1C
330
1B
100
AcDbEntity
 67
     1
  8
0
100
AcDbBlockBegin
  2
*Paper_Space
 70
     0
 10
0.0
 20
0.0
 30
0.0
  3
*Paper_Space
  1

  0
ENDBLK
  5
1D
330
1B
100
AcDbEntity
 67
     1
  8
0
100
AcDbBlockEnd
  0
BLOCK
  5
24
330
23
100
AcDbEntity
  8
0
100
AcDbBlockBegin
  2
*Paper_Space0
 70
     0
 10
0.0
 20
0.0
 30
0.0
  3
*Paper_Space0
  1

  0
ENDBLK
  5
25
330
23
100
AcDbEntity
  8
0
100
AcDbBlockEnd
  0
BLOCK
  5
8C
330
8B
100
AcDbEntity
  8
0
100
AcDbBlockBegin
  2
SW_CENTERMARKSYMBOL_0
 70
     0
 10
0.0
 20
0.0
 30
0.0
  3
SW_CENTERMARKSYMBOL_0
  1

  0
LINE
  5
8E
330
8B
100
AcDbEntity
  8
FORMAT
 62
     0
100
AcDbLine
 10
0.0
 20
0.0
 30
0.0
 11
0.0
 21
2.5
 31
0.0
  0
LINE
  5
8F
330
8B
100
AcDbEntity
  8
FORMAT
 62
     0
100
AcDbLine
 10
0.0
 20
0.0
 30
0.0
 11
-2.5
 21
0.0
 31
0.0
  0
LINE
  5
90
330
8B
100
AcDbEntity
  8
FORMAT
 62
     0
100
AcDbLine
 10
0.0
 20
0.0
 30
0.0
 11
0.0
 21
-2.5
 31
0.0
  0
LINE
  5
91
330
8B
100
AcDbEntity
  8
FORMAT
 62
     0
100
AcDbLine
 10
0.0
 20
0.0
 30
0.0
 11
2.5
 21
0.0
 31
0.0
  0
LINE
  5
92
330
8B
100
AcDbEntity
  8
FORMAT
 62
     0
100
AcDbLine
 10
0.0
 20
5.0
 30
0.0
 11
0.0
 21
104.5
 31
0.0
  0
LINE
  5
93
330
8B
100
AcDbEntity
  8
FORMAT
 62
     0
100
AcDbLine
 10
-5.0
 20
0.0
 30
0.0
 11
-104.5
 21
0.0
 31
0.0
  0
LINE
  5
94
330
8B
100
AcDbEntity
  8
FORMAT
 62
     0
100
AcDbLine
 10
0.0
 20
-5.0
 30
0.0
 11
0.0
 21
-104.5
 31
0.0
  0
LINE
  5
95
330
8B
100
AcDbEntity
  8
FORMAT
 62
     0
100
AcDbLine
 10
5.0
 20
0.0
 30
0.0
 11
104.5
 21
0.0
 31
0.0
  0
ENDBLK
  5
8D
330
8B
100
AcDbEntity
  8
0
100
AcDbBlockEnd
  0
BLOCK
  5
AA
330
A9
100
AcDbEntity
  8
0
100
AcDbBlockBegin
  2
SW_CENTERMARKSYMBOL_1
 70
     0
 10
0.0
 20
0.0
 30
0.0
  3
SW_CENTERMARKSYMBOL_1
  1

  0
LINE
  5
AC
330
A9
100
AcDbEntity
  8
FORMAT
 62
     0
100
AcDbLine
 10
0.0
 20
0.0
 30
0.0
 11
0.0
 21
2.5
 31
0.0
  0
LINE
  5
AD
330
A9
100
AcDbEntity
  8
FORMAT
 62
     0
100
AcDbLine
 10
0.0
 20
0.0
 30
0.0
 11
-2.5
 21
0.0
 31
0.0
  0
LINE
  5
AE
330
A9
100
AcDbEntity
  8
FORMAT
 62
     0
100
AcDbLine
 10
0.0
 20
0.0
 30
0.0
 11
0.0
 21
-2.5
 31
0.0
  0
LINE
  5
AF
330
A9
100
AcDbEntity
  8
FORMAT
 62
     0
100
AcDbLine
 10
0.0
 20
0.0
 30
0.0
 11
2.5
 21
0.0
 31
0.0
  0
LINE
  5
B0
330
A9
100
AcDbEntity
  8
FORMAT
 62
     0
100
AcDbLine
 10
0.0
 20
5.0
 30
0.0
 11
0.0
 21
34.0
 31
0.0
  0
LINE
  5
B1
330
A9
100
AcDbEntity
  8
FORMAT
 62
     0
100
AcDbLine
 10
-5.0
 20
0.0
 30
0.0
 11
-34.0
 21
0.0
 31
0.0
  0
LINE
  5
B2
330
A9
100
AcDbEntity
  8
FORMAT
 62
     0
100
AcDbLine
 10
0.0
 20
-5.0
 30
0.0
 11
0.0
 21
-34.0
 31
0.0
  0
LINE
  5
B3
330
A9
100
AcDbEntity
  8
FORMAT
 62
     0
100
AcDbLine
 10
5.0
 20
0.0
 30
0.0
 11
34.0
 21
0.0
 31
0.0
  0
ENDBLK
  5
AB
330
A9
100
AcDbEntity
  8
0
100
AcDbBlockEnd
  0
BLOCK
  5
DA
330
D9
100
AcDbEntity
  8
0
100
AcDbBlockBegin
  2
SW_CENTERMARKSYMBOL_2
 70
     0
 10
0.0
 20
0.0
 30
0.0
  3
SW_CENTERMARKSYMBOL_2
  1

  0
LINE
  5
DC
330
D9
100
AcDbEntity
  8
FORMAT
 62
     0
100
AcDbLine
 10
0.0
 20
0.0
 30
0.0
 11
0.0
 21
2.5
 31
0.0
  0
LINE
  5
DD
330
D9
100
AcDbEntity
  8
FORMAT
 62
     0
100
AcDbLine
 10
0.0
 20
0.0
 30
0.0
 11
-2.5
 21
0.0
 31
0.0
  0
LINE
  5
DE
330
D9
100
AcDbEntity
  8
FORMAT
 62
     0
100
AcDbLine
 10
0.0
 20
0.0
 30
0.0
 11
0.0
 21
-2.5
 31
0.0
  0
LINE
  5
DF
330
D9
100
AcDbEntity
  8
FORMAT
 62
     0
100
AcDbLine
 10
0.0
 20
0.0
 30
0.0
 11
2.5
 21
0.0
 31
0.0
  0
LINE
  5
E0
330
D9
100
AcDbEntity
  8
FORMAT
 62
     0
100
AcDbLine
 10
0.0
 20
5.0
 30
0.0
 11
0.0
 21
9.5
 31
0.0
  0
LINE
  5
E1
330
D9
100
AcDbEntity
  8
FORMAT
 62
     0
100
AcDbLine
 10
-5.0
 20
0.0
 30
0.0
 11
-9.5
 21
0.0
 31
0.0
  0
LINE
  5
E2
330
D9
100
AcDbEntity
  8
FORMAT
 62
     0
100
AcDbLine
 10
0.0
 20
-5.0
 30
0.0
 11
0.0
 21
-9.5
 31
0.0
  0
LINE
  5
E3
330
D9
100
AcDbEntity
  8
FORMAT
 62
     0
100
AcDbLine
 10
5.0
 20
0.0
 30
0.0
 11
9.5
 21
0.0
 31
0.0
  0
ENDBLK
  5
DB
330
D9
100
AcDbEntity
  8
0
100
AcDbBlockEnd
  0
BLOCK
  5
E6
330
E5
100
AcDbEntity
  8
0
100
AcDbBlockBegin
  2
SW_CENTERMARKSYMBOL_3
 70
     0
 10
0.0
 20
0.0
 30
0.0
  3
SW_CENTERMARKSYMBOL_3
  1

  0
LINE
  5
E8
330
E5
100
AcDbEntity
  8
FORMAT
 62
     0
100
AcDbLine
 10
0.0
 20
0.0
 30
0.0
 11
0.0
 21
2.5
 31
0.0
  0
LINE
  5
E9
330
E5
100
AcDbEntity
  8
FORMAT
 62
     0
100
AcDbLine
 10
0.0
 20
0.0
 30
0.0
 11
-2.5
 21
0.0
 31
0.0
  0
LINE
  5
EA
330
E5
100
AcDbEntity
  8
FORMAT
 62
     0
100
AcDbLine
 10
0.0
 20
0.0
 30
0.0
 11
0.0
 21
-2.5
 31
0.0
  0
LINE
  5
EB
330
E5
100
AcDbEntity
  8
FORMAT
 62
     0
100
AcDbLine
 10
0.0
 20
0.0
 30
0.0
 11
2.5
 21
0.0
 31
0.0
  0
LINE
  5
EC
330
E5
100
AcDbEntity
  8
FORMAT
 62
     0
100
AcDbLine
 10
0.0
 20
5.0
 30
0.0
 11
0.0
 21
9.5
 31
0.0
  0
LINE
  5
ED
330
E5
100
AcDbEntity
  8
FORMAT
 62
     0
100
AcDbLine
 10
-5.0
 20
0.0
 30
0.0
 11
-9.5
 21
0.0
 31
0.0
  0
LINE
  5
EE
330
E5
100
AcDbEntity
  8
FORMAT
 62
     0
100
AcDbLine
 10
0.0
 20
-5.0
 30
0.0
 11
0.0
 21
-9.5
 31
0.0
  0
LINE
  5
EF
330
E5
100
AcDbEntity
  8
FORMAT
 62
     0
100
AcDbLine
 10
5.0
 20
0.0
 30
0.0
 11
9.5
 21
0.0
 31
0.0
  0
ENDBLK
  5
E7
330
E5
100
AcDbEntity
  8
0
100
AcDbBlockEnd
  0
ENDSEC
  0
SECTION
  2
ENTITIES
  0
LINE
  5
83
330
1F
100
AcDbEntity
  8
0
  6
Continuous
 62
     7
370
    25
100
AcDbLine
 10
113.6077423312
 20
207.2890535006
 30
0.0
 11
113.6077423312
 21
224.5234650601
 31
0.0
  0
LINE
  5
84
330
1F
100
AcDbEntity
  8
0
  6
Continuous
 62
     7
370
    25
100
AcDbLine
 10
99.6077423312
 20
224.5234650601
 30
0.0
 11
99.6077423312
 21
207.2835226871
 31
0.0
  0
LINE
  5
85
330
1F
100
AcDbEntity
  8
0
  6
Continuous
 62
     7
370
    25
100
AcDbLine
 10
203.6584091161
 20
74.0234650601
 30
0.0
 11
274.6077423312
 21
74.0234650601
 31
0.0
  0
LINE
  5
86
330
1F
100
AcDbEntity
  8
0
  6
Continuous
 62
     7
370
    25
100
AcDbLine
 10
274.6077423312
 20
137.0234650601
 30
0.0
 11
203.6547859141
 21
137.0234650601
 31
0.0
  0
CIRCLE
  5
87
330
1F
100
AcDbEntity
  8
0
  6
Continuous
 62
     7
370
    25
100
AcDbCircle
 10
106.6077423312
 20
105.5234650601
 30
0.0
 40
79.99999999999999
  0
CIRCLE
  5
88
330
1F
100
AcDbEntity
  8
0
  6
Continuous
 62
     7
370
    25
100
AcDbCircle
 10
106.6077423312
 20
105.5234650601
 30
0.0
 40
102.0
  0
LINE
  5
89
330
1F
100
AcDbEntity
  8
0
  6
Continuous
 62
     7
370
    25
100
AcDbLine
 10
113.6077423312
 20
224.5234650601
 30
0.0
 11
99.6077423312
 21
224.5234650601
 31
0.0
  0
LINE
  5
8A
330
1F
100
AcDbEntity
  8
0
  6
Continuous
 62
     7
370
    25
100
AcDbLine
 10
274.6077423312
 20
137.0234650601
 30
0.0
 11
274.6077423312
 21
74.0234650601
 31
0.0
  0
INSERT
  5
96
330
1F
100
AcDbEntity
  8
FORMAT
 62
     7
100
AcDbBlockReference
  2
SW_CENTERMARKSYMBOL_0
 10
106.6077423312
 20
105.5234650601
 30
0.0
  0
LINE
  5
97
330
1F
100
AcDbEntity
  8
0
  6
Continuous
 62
     7
370
    25
100
AcDbLine
 10
-404.7044561778
 20
207.5234650601
 30
0.0
 11
-405.7907366412
 21
207.5234650601
 31
0.0
  0
LINE
  5
98
330
1F
100
AcDbEntity
  8
0
  6
Continuous
 62
     7
370
    25
100
AcDbLine
 10
-100.7044561778
 20
207.5234650601
 30
0.0
 11
-390.7907366412
 21
207.5234650601
 31
0.0
  0
LINE
  5
99
330
1F
100
AcDbEntity
  8
0
  6
Continuous
 62
     7
370
    25
100
AcDbLine
 10
-85.7907366412
 20
207.5234650601
 30
0.0
 11
-86.7907366412
 21
207.5234650601
 31
0.0
  0
LINE
  5
9A
330
1F
100
AcDbEntity
  8
0
  6
Continuous
 62
     7
370
    25
100
AcDbLine
 10
-405.7907366412
 20
3.5234650601
 30
0.0
 11
-85.7907366412
 21
3.5234650601
 31
0.0
  0
LINE
  5
9B
330
1F
100
AcDbEntity
  8
0
  6
Continuous
 62
     7
370
    25
100
AcDbLine
 10
-86.7907366412
 20
207.5234650601
 30
0.0
 11
-86.7907366412
 21
224.5234650601
 31
0.0
  0
LINE
  5
9C
330
1F
100
AcDbEntity
  8
0
  6
Continuous
 62
     7
370
    25
100
AcDbLine
 10
-100.7907366412
 20
224.5234650601
 30
0.0
 11
-100.7907366412
 21
207.5176233584
 31
0.0
  0
LINE
  5
9D
330
1F
100
AcDbEntity
  8
0
  6
Continuous
 62
     7
370
    25
100
AcDbLine
 10
-390.7907366412
 20
207.5234650601
 30
0.0
 11
-390.7907366412
 21
224.5234650601
 31
0.0
  0
LINE
  5
9E
330
1F
100
AcDbEntity
  8
0
  6
Continuous
 62
     7
370
    25
100
AcDbLine
 10
-404.7907366412
 20
224.5234650601
 30
0.0
 11
-404.7907366412
 21
207.5176233584
 31
0.0
  0
CIRCLE
  5
9F
330
1F
100
AcDbEntity
  8
0
  6
Continuous
 62
     7
370
    25
100
AcDbCircle
 10
-245.7907366412
 20
105.5234650601
 30
0.0
 40
25.69999999999999
  0
CIRCLE
  5
A0
330
1F
100
AcDbEntity
  8
0
  6
Continuous
 62
     7
370
    25
100
AcDbCircle
 10
-245.7907366412
 20
105.5234650601
 30
0.0
 40
31.49999999999997
  0
LINE
  5
A1
330
1F
100
AcDbEntity
  8
0
  6
Continuous
 62
     7
370
    25
100
AcDbLine
 10
-405.7907366412
 20
105.5234650601
 30
0.0
 11
-405.7907366412
 21
207.5234650601
 31
0.0
  0
LINE
  5
A2
330
1F
100
AcDbEntity
  8
0
  6
Continuous
 62
     7
370
    25
100
AcDbLine
 10
-405.7907366412
 20
3.5234650601
 30
0.0
 11
-405.7907366412
 21
105.5234650601
 31
0.0
  0
LINE
  5
A3
330
1F
100
AcDbEntity
  8
0
  6
Continuous
 62
     7
370
    25
100
AcDbLine
 10
-85.7907366412
 20
105.5234650601
 30
0.0
 11
-85.7907366412
 21
207.5234650601
 31
0.0
  0
LINE
  5
A4
330
1F
100
AcDbEntity
  8
0
  6
Continuous
 62
     7
370
    25
100
AcDbLine
 10
-85.7907366412
 20
3.5234650601
 30
0.0
 11
-85.7907366412
 21
105.5234650601
 31
0.0
  0
SPLINE
  5
A5
330
1F
100
AcDbEntity
  8
0
  6
Continuous
 62
     7
370
    25
100
AcDbSpline
210
0.0
220
0.0
230
1.0
 70
     8
 71
     3
 72
    17
 73
    13
 74
     0
 42
0.00000001
 43
0.00000001
 40
0.0
 40
0.0
 40
0.0
 40
0.0
 40
0.1071987416107221
 40
0.2143914004444458
 40
0.3217420566552194
 40
0.4291972110293517
 40
0.5364801409012592
 40
0.6435828546421558
 40
0.7507785987758452
 40
0.858195229673666
 40
0.9656163607216554
 40
0.9999999999999999
 40
0.9999999999999999
 40
0.9999999999999999
 40
0.9999999999999999
 10
-390.7907366412398
 20
207.5234650601211
 30
0.0
 10
-390.8679459139435
 20
207.5180157074478
 30
0.0
 10
-391.0223600782659
 20
207.5071173113139
 30
0.0
 10
-392.2258418174181
 20
207.4313227727478
 30
0.0
 10
-393.9996943954765
 20
207.3469237405877
 30
0.0
 10
-396.2171391671741
 20
207.2860796168554
 30
0.0
 10
-398.6079466977346
 20
207.2769882038084
 30
0.0
 10
-400.9013246826057
 20
207.3228173752277
 30
0.0
 10
-402.8597781388444
 20
207.4047297957542
 30
0.0
 10
-404.1944234008066
 20
207.4825097078686
 30
0.0
 10
-404.8290561799478
 20
207.526059672657
 30
0.0
 10
-404.7287722014032
 20
207.5192524356081
 30
0.0
 10
-404.7044561777904
 20
207.5176018734822
 30
0.0
  0
SPLINE
  5
A6
330
1F
100
AcDbEntity
  8
0
  6
Continuous
 62
     7
370
    25
100
AcDbSpline
210
0.0
220
0.0
230
1.0
 70
     8
 71
     3
 72
    17
 73
    13
 74
     0
 42
0.00000001
 43
0.00000001
 40
0.0
 40
0.0
 40
0.0
 40
0.0
 40
0.1071987416107219
 40
0.2143914004444454
 40
0.3217420566552188
 40
0.4291972110293509
 40
0.5364801409012583
 40
0.6435828546421547
 40
0.750778598775844
 40
0.8581952296736646
 40
0.9656163607216537
 40
1.0
 40
1.0
 40
1.0
 40
1.0
 10
-86.7907366412399
 20
207.5234650601211
 30
0.0
 10
-86.8679459139435
 20
207.5180157074478
 30
0.0
 10
-87.0223600782658
 20
207.5071173113139
 30
0.0
 10
-88.22584181741819
 20
207.4313227727478
 30
0.0
 10
-89.99969439547655
 20
207.3469237405878
 30
0.0
 10
-92.21713916717411
 20
207.2860796168553
 30
0.0
 10
-94.60794669773465
 20
207.2769882038084
 30
0.0
 10
-96.90132468260556
 20
207.3228173752277
 30
0.0
 10
-98.85977813884448
 20
207.4047297957542
 30
0.0
 10
-100.1944234008065
 20
207.4825097078687
 30
0.0
 10
-100.8290561799478
 20
207.526059672657
 30
0.0
 10
-100.7287722014033
 20
207.5192524356081
 30
0.0
 10
-100.7044561777904
 20
207.5176018734822
 30
0.0
  0
LINE
  5
A7
330
1F
100
AcDbEntity
  8
0
  6
Continuous
 62
     7
370
    25
100
AcDbLine
 10
-86.7907366412
 20
224.5234650601
 30
0.0
 11
-100.7907366412
 21
224.5234650601
 31
0.0
  0
LINE
  5
A8
330
1F
100
AcDbEntity
  8
0
  6
Continuous
 62
     7
370
    25
100
AcDbLine
 10
-390.7907366412
 20
224.5234650601
 30
0.0
 11
-404.7907366412
 21
224.5234650601
 31
0.0
  0
INSERT
  5
B4
330
1F
100
AcDbEntity
  8
FORMAT
 62
     7
100
AcDbBlockReference
  2
SW_CENTERMARKSYMBOL_1
 10
-245.7907366412
 20
105.5234650601
 30
0.0
  0
LINE
  5
B5
330
1F
100
AcDbEntity
  8
0
  6
Continuous
 62
     7
370
    25
100
AcDbLine
 10
208.6077423312
 20
468.8860373618
 30
0.0
 11
208.6077423312
 21
597.3860373618
 31
0.0
  0
LINE
  5
B6
330
1F
100
AcDbEntity
  8
0
  6
Continuous
 62
     7
370
    25
100
AcDbLine
 10
208.6077423312
 20
277.3860373618
 30
0.0
 11
208.6077423312
 21
405.9129194736
 31
0.0
  0
LINE
  5
B7
330
1F
100
AcDbEntity
  8
0
  6
Continuous
 62
     7
370
    25
100
AcDbLine
 10
4.6077423312
 20
597.3860373618
 30
0.0
 11
4.6077423312
 21
277.3860373618
 31
0.0
  0
LINE
  5
B8
330
1F
100
AcDbEntity
  8
0
  6
Continuous
 62
     7
370
    25
100
AcDbLine
 10
208.5995175051
 20
405.8860373618
 30
0.0
 11
274.6077423312
 21
405.8860373618
 31
0.0
  0
LINE
  5
B9
330
1F
100
AcDbEntity
  8
0
  6
Continuous
 62
     7
370
    25
100
AcDbLine
 10
274.6077423312
 20
468.8860373618
 30
0.0
 11
208.6077423312
 21
468.8860373618
 31
0.0
  0
SPLINE
  5
BA
330
1F
100
AcDbEntity
  8
0
  6
Continuous
 62
     7
370
    25
100
AcDbSpline
210
0.0
220
0.0
230
1.0
 70
     8
 71
     3
 72
    26
 73
    22
 74
     0
 42
0.00000001
 43
0.00000001
 40
0.0
 40
0.0
 40
0.0
 40
0.0
 40
0.0512346747140571
 40
0.1039969149229494
 40
0.155220456877543
 40
0.2078561820341446
 40
0.2604826919879961
 40
0.3145627595179675
 40
0.3683716409001973
 40
0.4238307497641573
 40
0.4760213419209571
 40
0.5298492172646677
 40
0.580103026943786
 40
0.6317783421595122
 40
0.6828036822904373
 40
0.7351878296454412
 40
0.7884381320196857
 40
0.8432058089254163
 40
0.8967748077491133
 40
0.9520171157796282
 40
1.0
 40
1.0
 40
1.0
 40
1.0
 10
208.6077423312074
 20
468.8860373618353
 30
0.0
 10
208.5829253958786
 20
468.8061448105446
 30
0.0
 10
208.5325516065173
 20
468.6439777058265
 30
0.0
 10
208.1375880446461
 20
467.3428464971985
 30
0.0
 10
207.5478659949707
 20
465.2949785735175
 30
0.0
 10
206.8043912034136
 20
462.500330236576
 30
0.0
 10
205.9733300279264
 20
458.9830895010097
 30
0.0
 10
205.1465481906008
 20
454.8368920612535
 30
0.0
 10
204.4108876860939
 20
450.1051441393719
 30
0.0
 10
203.8766385603849
 20
445.0355770386465
 30
0.0
 10
203.6021852263939
 20
439.7304335814002
 30
0.0
 10
203.6180891392184
 20
434.5214714783227
 30
0.0
 10
203.9071849109563
 20
429.4206980576844
 30
0.0
 10
204.4201751274261
 20
424.6329333911523
 30
0.0
 10
205.1140848214991
 20
420.1323436035025
 30
0.0
 10
205.9163832707679
 20
416.051571599575
 30
0.0
 10
206.7555202465996
 20
412.4618615958639
 30
0.0
 10
207.5302676531464
 20
409.5374221505625
 30
0.0
 10
208.1476954847574
 20
407.3938803480622
 30
0.0
 10
208.5412516796833
 20
406.1002377479691
 30
0.0
 10
208.5810028733949
 20
405.9723612129324
 30
0.0
 10
208.5994806973049
 20
405.9129194735529
 30
0.0
  0
LINE
  5
BB
330
1F
100
AcDbEntity
  8
0
  6
Continuous
 62
     7
370
    25
100
AcDbLine
 10
4.6077423312
 20
597.3860373618
 30
0.0
 11
208.6077423312
 21
597.3860373618
 31
0.0
  0
LINE
  5
BC
330
1F
100
AcDbEntity
  8
0
  6
Continuous
 62
     7
370
    25
100
AcDbLine
 10
4.6077423312
 20
277.3860373618
 30
0.0
 11
208.6077423312
 21
277.3860373618
 31
0.0
  0
LINE
  5
BD
330
1F
100
AcDbEntity
  8
0
  6
Continuous
 62
     7
370
    25
100
AcDbLine
 10
274.6077423312
 20
468.8860373618
 30
0.0
 11
274.6077423312
 21
405.8860373618
 31
0.0
  0
LINE
  5
BE
330
1F
100
AcDbEntity
  8
0
  6
Continuous
 62
     7
370
    25
100
AcDbLine
 10
373.4648695654
 20
3.5234650601
 30
0.0
 11
693.4648695654
 21
3.5234650601
 31
0.0
  0
LINE
  5
BF
330
1F
100
AcDbEntity
  8
0
  6
Continuous
 62
     7
370
    25
100
AcDbLine
 10
374.4648695654
 20
207.5234650601
 30
0.0
 11
373.4648695654
 21
207.5234650601
 31
0.0
  0
LINE
  5
C0
330
1F
100
AcDbEntity
  8
0
  6
Continuous
 62
     7
370
    25
100
AcDbLine
 10
678.4648695654
 20
207.5234650601
 30
0.0
 11
388.3785891019
 21
207.5234650601
 31
0.0
  0
LINE
  5
C1
330
1F
100
AcDbEntity
  8
0
  6
Continuous
 62
     7
370
    25
100
AcDbLine
 10
693.4648695654
 20
207.5234650601
 30
0.0
 11
692.3785891019
 21
207.5234650601
 31
0.0
  0
LINE
  5
C2
330
1F
100
AcDbEntity
  8
0
  6
Continuous
 62
     7
370
    25
100
AcDbLine
 10
388.4648695654
 20
207.5176233584
 30
0.0
 11
388.4648695654
 21
224.5234650601
 31
0.0
  0
LINE
  5
C3
330
1F
100
AcDbEntity
  8
0
  6
Continuous
 62
     7
370
    25
100
AcDbLine
 10
374.4648695654
 20
224.5234650601
 30
0.0
 11
374.4648695654
 21
207.5234650601
 31
0.0
  0
LINE
  5
C4
330
1F
100
AcDbEntity
  8
0
  6
Continuous
 62
     7
370
    25
100
AcDbLine
 10
692.4648695654
 20
207.5176233584
 30
0.0
 11
692.4648695654
 21
224.5234650601
 31
0.0
  0
LINE
  5
C5
330
1F
100
AcDbEntity
  8
0
  6
Continuous
 62
     7
370
    25
100
AcDbLine
 10
678.4648695654
 20
224.5234650601
 30
0.0
 11
678.4648695654
 21
207.5234650601
 31
0.0
  0
LINE
  5
C6
330
1F
100
AcDbEntity
  8
0
  6
Continuous
 62
     7
370
    25
100
AcDbLine
 10
693.4648695654
 20
207.5234650601
 30
0.0
 11
693.4648695654
 21
3.5234650601
 31
0.0
  0
LINE
  5
C7
330
1F
100
AcDbEntity
  8
0
  6
Continuous
 62
     7
370
    25
100
AcDbLine
 10
373.4648695654
 20
207.5234650601
 30
0.0
 11
373.4648695654
 21
3.5234650601
 31
0.0
  0
ARC
  5
C8
330
1F
100
AcDbEntity
  8
0
  6
Continuous
 62
     7
370
    25
100
AcDbCircle
 10
685.4646571454
 20
309.3909956259
 30
0.0
 40
102.1077411841954
100
AcDbArc
 50
266.0691219218
 51
273.8825896491
  0
ARC
  5
C9
330
1F
100
AcDbEntity
  8
0
  6
Continuous
 62
     7
370
    25
100
AcDbCircle
 10
381.4646571454
 20
309.390995626
 30
0.0
 40
102.1077411842305
100
AcDbArc
 50
266.0691219218
 51
273.8825896491
  0
LINE
  5
CA
330
1F
100
AcDbEntity
  8
0
  6
Continuous
 62
     7
370
    25
100
AcDbLine
 10
388.4648695654
 20
224.5234650601
 30
0.0
 11
374.4648695654
 21
224.5234650601
 31
0.0
  0
LINE
  5
CB
330
1F
100
AcDbEntity
  8
0
  6
Continuous
 62
     7
370
    25
100
AcDbLine
 10
692.4648695654
 20
224.5234650601
 30
0.0
 11
678.4648695654
 21
224.5234650601
 31
0.0
  0
LINE
  5
CC
330
1F
100
AcDbEntity
  8
0
  6
Continuous
 62
     7
370
    25
100
AcDbLine
 10
4.6077423312
 20
-54.0034469535
 30
0.0
 11
4.6077423312
 21
-374.0034469535
 31
0.0
  0
LINE
  5
CD
330
1F
100
AcDbEntity
  8
0
  6
Continuous
 62
     7
370
    25
100
AcDbLine
 10
208.6077423312
 20
-182.5303290653
 30
0.0
 11
208.6077423312
 21
-54.0034469535
 31
0.0
  0
LINE
  5
CE
330
1F
100
AcDbEntity
  8
0
  6
Continuous
 62
     7
370
    25
100
AcDbLine
 10
208.6077423312
 20
-374.0034469535
 30
0.0
 11
208.6077423312
 21
-245.5034469535
 31
0.0
  0
LINE
  5
CF
330
1F
100
AcDbEntity
  8
0
  6
Continuous
 62
     7
370
    25
100
AcDbLine
 10
208.6077423312
 20
-245.5034469535
 30
0.0
 11
274.6077423312
 21
-245.5034469535
 31
0.0
  0
LINE
  5
D0
330
1F
100
AcDbEntity
  8
0
  6
Continuous
 62
     7
370
    25
100
AcDbLine
 10
274.6077423312
 20
-182.5034469535
 30
0.0
 11
208.5995175051
 21
-182.5034469535
 31
0.0
  0
CIRCLE
  5
D1
330
1F
100
AcDbEntity
  8
0
  6
Continuous
 62
     7
370
    25
100
AcDbCircle
 10
106.6077423312
 20
-62.0034469535
 30
0.0
 40
5.000000000000014
  0
CIRCLE
  5
D2
330
1F
100
AcDbEntity
  8
0
  6
Continuous
 62
     7
370
    25
100
AcDbCircle
 10
106.6077423312
 20
-62.0034469535
 30
0.0
 40
7.000000000000014
  0
CIRCLE
  5
D3
330
1F
100
AcDbEntity
  8
0
  6
Continuous
 62
     7
370
    25
100
AcDbCircle
 10
106.6077423312
 20
-366.0034469535
 30
0.0
 40
5.0
  0
CIRCLE
  5
D4
330
1F
100
AcDbEntity
  8
0
  6
Continuous
 62
     7
370
    25
100
AcDbCircle
 10
106.6077423312
 20
-366.0034469535
 30
0.0
 40
7.0
  0
SPLINE
  5
D5
330
1F
100
AcDbEntity
  8
0
  6
Continuous
 62
     7
370
    25
100
AcDbSpline
210
0.0
220
0.0
230
1.0
 70
     8
 71
     3
 72
    27
 73
    23
 74
     0
 42
0.00000001
 43
0.00000001
 40
0.0
 40
0.0
 40
0.0
 40
0.0
 40
0.0035681553886459
 40
0.0566890383213713
 40
0.1070596876114419
 40
0.158827744771209
 40
0.2104395528753351
 40
0.2634400592785665
 40
0.3169933756756647
 40
0.3721075426687163
 40
0.4253605721686862
 40
0.4802998612994486
 40
0.5312346163343131
 40
0.5836924631745588
 40
0.6339925673524714
 40
0.6856499056098072
 40
0.7378835102407444
 40
0.7915396535334521
 40
0.8453429934755741
 40
0.9007691975775505
 40
0.9497261032446569
 40
0.9999999999999999
 40
0.9999999999999999
 40
0.9999999999999999
 40
0.9999999999999999
 10
208.5994806973049
 20
-182.5303290652614
 30
0.0
 10
208.6022010145273
 20
-182.5214768002616
 30
0.0
 10
208.6454200312098
 20
-182.3808365155362
 30
0.0
 10
208.4820152305192
 20
-182.9090098093616
 30
0.0
 10
208.1052694451973
 20
-184.1573475736606
 30
0.0
 10
207.5050343197333
 20
-186.247829756621
 30
0.0
 10
206.7585555707451
 20
-189.0725959937883
 30
0.0
 10
205.9310647335486
 20
-192.5997381887931
 30
0.0
 10
205.1018022562292
 20
-196.8024520307264
 30
0.0
 10
204.3806042934773
 20
-201.5205222595842
 30
0.0
 10
203.8524348480343
 20
-206.6606677869746
 30
0.0
 10
203.5966209765755
 20
-211.9010068066676
 30
0.0
 10
203.6282727068857
 20
-217.1740046649004
 30
0.0
 10
203.9262277249393
 20
-222.2024736426254
 30
0.0
 10
204.455325145015
 20
-227.0176307667583
 30
0.0
 10
205.1522395075418
 20
-231.4730236451012
 30
0.0
 10
205.9621311034454
 20
-235.548640410665
 30
0.0
 10
206.7962496151704
 20
-239.0882450053477
 30
0.0
 10
207.5707091765975
 20
-241.9981455399397
 30
0.0
 10
208.1581033795889
 20
-244.0282799128758
 30
0.0
 10
208.5368833093395
 20
-245.2753333601235
 30
0.0
 10
208.5839145908811
 20
-245.4267392693895
 30
0.0
 10
208.6077423312074
 20
-245.5034469535437
 30
0.0
  0
LINE
  5
D6
330
1F
100
AcDbEntity
  8
0
  6
Continuous
 62
     7
370
    25
100
AcDbLine
 10
208.6077423312
 20
-374.0034469535
 30
0.0
 11
4.6077423312
 21
-374.0034469535
 31
0.0
  0
LINE
  5
D7
330
1F
100
AcDbEntity
  8
0
  6
Continuous
 62
     7
370
    25
100
AcDbLine
 10
208.6077423312
 20
-54.0034469535
 30
0.0
 11
4.6077423312
 21
-54.0034469535
 31
0.0
  0
LINE
  5
D8
330
1F
100
AcDbEntity
  8
0
  6
Continuous
 62
     7
370
    25
100
AcDbLine
 10
274.6077423312
 20
-182.5034469535
 30
0.0
 11
274.6077423312
 21
-245.5034469535
 31
0.0
  0
INSERT
  5
E4
330
1F
100
AcDbEntity
  8
FORMAT
 62
     7
100
AcDbBlockReference
  2
SW_CENTERMARKSYMBOL_2
 10
106.6077423312
 20
-366.0034469535
 30
0.0
  0
INSERT
  5
F0
330
1F
100
AcDbEntity
  8
FORMAT
 62
     7
100
AcDbBlockReference
  2
SW_CENTERMARKSYMBOL_3
 10
106.6077423312
 20
-62.0034469535
 30
0.0
  0
LINE
  5
F1
330
1F
100
AcDbEntity
  8
0
  6
Continuous
 62
     7
370
    25
100
AcDbLine
 10
716.771387432
 20
-210.6250424968
 30
0.0
 11
686.1492971526
 21
-192.9472860601
 31
0.0
  0
LINE
  5
F2
330
1F
100
AcDbEntity
  8
0
  6
Continuous
 62
     7
370
    25
100
AcDbLine
 10
623.1441768925
 20
-156.5752043355
 30
0.0
 11
490.4972174523
 21
-79.9997446052
 31
0.0
  0
LINE
  5
F3
330
1F
100
AcDbEntity
  8
0
  6
Continuous
 62
     7
370
    25
100
AcDbLine
 10
388.5055067234
 20
-256.6737125308
 30
0.0
 11
614.7796767031
 21
-387.2990104225
 31
0.0
  0
LINE
  5
F4
330
1F
100
AcDbEntity
  8
0
  6
Continuous
 62
     7
370
    25
100
AcDbLine
 10
638.7693680537
 20
-220.2991369284
 30
0.0
 11
687.1811063561
 21
-192.3516352857
 31
0.0
  0
LINE
  5
F5
330
1F
100
AcDbEntity
  8
0
  6
Continuous
 62
     7
370
    25
100
AcDbLine
 10
655.6836662781
 20
-137.7905569557
 30
0.0
 11
607.2720905621
 21
-165.7379647393
 31
0.0
  0
LINE
  5
F6
330
1F
100
AcDbEntity
  8
0
  6
Continuous
 62
     7
370
    25
100
AcDbLine
 10
452.1582163374
 20
-79.0353644129
 30
0.0
 11
452.1582163374
 21
-74.4340044009
 31
0.0
  0
LINE
  5
F7
330
1F
100
AcDbEntity
  8
0
  6
Continuous
 62
     7
370
    25
100
AcDbLine
 10
438.1582163374
 20
-74.4340044009
 30
0.0
 11
438.1582163374
 21
-85.8393904345
 31
0.0
  0
SPLINE
  5
F8
330
1F
100
AcDbEntity
  8
0
  6
Continuous
 62
     7
370
    25
100
AcDbSpline
210
0.0
220
0.0
230
1.0
 70
     8
 71
     3
 72
    22
 73
    18
 74
     0
 42
0.00000001
 43
0.00000001
 40
0.0
 40
0.0
 40
0.0
 40
0.0
 40
0.0693254978311602
 40
0.1386594759873645
 40
0.2078921688385546
 40
0.2771375163275135
 40
0.348275747599359
 40
0.4194125775660669
 40
0.492265609830471
 40
0.565100499243755
 40
0.6357798898677509
 40
0.7064540472775931
 40
0.7743994219051212
 40
0.8423574709898014
 40
0.9112920827720291
 40
0.98023656269893
 40
1.0
 40
1.0
 40
1.0
 40
1.0
 10
602.4894751513798
 20
-179.1541360496692
 30
0.0
 10
602.5301290057494
 20
-180.608143006072
 30
0.0
 10
602.61144168752
 20
-183.5163347820303
 30
0.0
 10
603.2551790349719
 20
-188.3132818922649
 30
0.0
 10
604.2869064355154
 20
-193.2502415567982
 30
0.0
 10
605.7436344326704
 20
-198.2584350352207
 30
0.0
 10
607.6414628354348
 20
-203.1801153235619
 30
0.0
 10
609.9993186521327
 20
-207.9069196788264
 30
0.0
 10
612.8216726827785
 20
-212.2192938890117
 30
0.0
 10
616.0415783863461
 20
-215.9370025834869
 30
0.0
 10
619.5887655456024
 20
-218.8755510747961
 30
0.0
 10
623.2967040586252
 20
-220.969864801364
 30
0.0
 10
627.0891812847626
 20
-222.1774260986245
 30
0.0
 10
630.8589576209191
 20
-222.5802723333303
 30
0.0
 10
634.48654228444
 20
-222.0918345681155
 30
0.0
 10
637.1689071315707
 20
-221.2884271695992
 30
0.0
 10
638.439585364805
 20
-220.4165238550306
 30
0.0
 10
638.7226826392888
 20
-220.2222705456469
 30
0.0
  0
SPLINE
  5
F9
330
1F
100
AcDbEntity
  8
0
  6
Continuous
 62
     7
370
    25
100
AcDbSpline
210
0.0
220
0.0
230
1.0
 70
     8
 71
     3
 72
    12
 73
     8
 74
     0
 42
0.00000001
 43
0.00000001
 40
0.0
 40
0.0
 40
0.0
 40
0.0
 40
0.1661875260621356
 40
0.3846619856054403
 40
0.6030897358242123
 40
0.8015550429416989
 40
1.0
 40
1.0
 40
1.0
 40
1.0
 10
607.3111465106326
 20
-165.801602963688
 30
0.0
 10
606.7929227404051
 20
-166.1250875737068
 30
0.0
 10
605.5934284752991
 20
-166.8738334955647
 30
0.0
 10
604.2391925148247
 20
-168.9737649525869
 30
0.0
 10
603.2041564756146
 20
-171.834743288526
 30
0.0
 10
602.6009383430674
 20
-175.244778036229
 30
0.0
 10
602.5266282786207
 20
-177.8510612542646
 30
0.0
 10
602.4894751513798
 20
-179.1541360496692
 30
0.0
  0
LWPOLYLINE
  5
FA
330
1F
100
AcDbEntity
  8
0
  6
Continuous
 62
     7
370
    25
100
AcDbPolyline
 90
      112
 70
   128
 43
0.0
 10
511.6262537689
 20
-126.6999148651
 10
511.5107348829
 20
-122.054627166
 10
511.1645482669
 20
-117.5575949905
 10
510.5888028608
 20
-113.2232236886
 10
509.7853429508
 20
-109.0653975582
 10
508.7567422613
 20
-105.0974353698
 10
507.5062957102
 20
-101.3320477027
 10
506.038008855
 20
-97.7812962286
 10
504.356585061
 20
-94.456555075
 10
502.4674104356
 20
-91.3684743901
 10
500.3765365747
 20
-88.5269462274
 10
498.0906611775
 20
-85.9410728582
 10
495.6171065921
 20
-83.6191376145
 10
492.9637963595
 20
-81.5685783549
 10
490.1392298324
 20
-79.7959636388
 10
487.1524549488
 20
-78.3069716857
 10
484.0130392491
 20
-77.1063721856
 10
480.7310392284
 20
-76.1980110207
 10
477.316968122
 20
-75.5847979456
 10
473.7817622291
 20
-75.2686972667
 10
470.1367458798
 20
-75.2507215498
 10
466.3935951604
 20
-75.5309283765
 10
462.5643005111
 20
-76.1084201599
 10
458.6611283171
 20
-76.9813470196
 10
454.6965816158
 20
-78.1469127078
 10
450.6833600453
 20
-79.6013835663
 10
446.6343191642
 20
-81.3401004862
 10
442.5624292712
 20
-83.3574938333
 10
438.4807338572
 20
-85.6471012883
 10
434.4023078231
 20
-88.2015885484
 10
430.3402155971
 20
-91.0127728207
 10
426.3074692851
 20
-94.0716490346
 10
422.3169869894
 20
-97.3684186873
 10
418.3815514278
 20
-100.8925212317
 10
414.5137689869
 20
-104.6326679049
 10
410.7260293398
 20
-108.5768778897
 10
407.0304657585
 20
-112.7125166923
 10
403.4389162474
 20
-117.0263366149
 10
399.9628856222
 20
-121.5045191917
 10
396.613508657
 20
-126.1327194539
 10
393.401514416
 20
-130.8961118807
 10
390.337191885
 20
-135.7794378902
 10
387.430357013
 20
-140.767054717
 10
384.6903212683
 20
-145.8429855207
 10
382.1258618115
 20
-150.9909705647
 10
379.7451933795
 20
-156.1945193008
 10
377.5559419708
 20
-161.4369631939
 10
375.5651204178
 20
-166.7015091155
 10
373.779105922
 20
-171.971293138
 10
372.2036196263
 20
-177.2294345545
 10
370.8437082884
 20
-182.4590899528
 10
369.7037281141
 20
-187.64350717
 10
368.7873308038
 20
-192.7660789548
 10
368.0974518541
 20
-197.8103961655
 10
367.6363011555
 20
-202.7603003333
 10
367.4053559126
 20
-207.5999354229
 10
367.4053559126
 20
-212.313798624
 10
367.6363011555
 20
-216.8867900118
 10
368.0974518541
 20
-221.3042609161
 10
368.7873308038
 20
-225.5520608459
 10
369.7037281141
 20
-229.6165828174
 10
370.8437082884
 20
-233.4848069414
 10
372.2036196263
 20
-237.1443421298
 10
373.779105922
 20
-240.5834657882
 10
375.5651204178
 20
-243.7911613667
 10
377.5559419708
 20
-246.7571536493
 10
379.7451933795
 20
-249.4719416685
 10
382.1258618115
 20
-251.92682914
 10
384.6903212683
 20
-254.1139523189
 10
387.430357013
 20
-256.0263051904
 10
390.337191885
 20
-257.6577619118
 10
393.401514416
 20
-259.0030964354
 10
396.613508657
 20
-260.0579992489
 10
399.9628856222
 20
-260.8190911808
 10
403.4389162474
 20
-261.2839342241
 10
407.0304657585
 20
-261.4510393464
 10
410.7260293398
 20
-261.3198712596
 10
414.5137689869
 20
-260.8908501347
 10
418.3815514278
 20
-260.1653502556
 10
422.3169869894
 20
-259.1456956172
 10
426.3074692851
 20
-257.8351524807
 10
430.3402155971
 20
-256.2379189108
 10
434.4023078231
 20
-254.3591113282
 10
438.4807338572
 20
-252.2047481201
 10
442.5624292712
 20
-249.7817303611
 10
446.6343191642
 20
-247.0978197078
 10
450.6833600453
 20
-244.1616135351
 10
454.6965816158
 20
-240.9825173964
 10
458.6611283171
 20
-237.5707148953
 10
462.5643005111
 20
-233.9371350636
 10
466.3935951604
 20
-230.093417353
 10
470.1367458798
 20
-226.0518743501
 10
473.7817622291
 20
-221.8254523356
 10
477.316968122
 20
-217.4276898133
 10
480.7310392284
 20
-212.8726741424
 10
484.0130392491
 20
-208.1749964114
 10
487.1524549488
 20
-203.3497046983
 10
490.1392298324
 20
-198.412255867
 10
492.9637963595
 20
-193.3784660548
 10
495.6171065921
 20
-188.264460008
 10
498.0906611775
 20
-183.0866194296
 10
500.3765365747
 20
-177.8615305041
 10
502.4674104356
 20
-172.6059307664
 10
504.356585061
 20
-167.3366554871
 10
506.038008855
 20
-162.0705837434
 10
507.5062957102
 20
-156.8245843506
 10
508.7567422613
 20
-151.6154618264
 10
509.7853429508
 20
-146.4599025605
 10
510.5888028608
 20
-141.3744213638
 10
511.1645482669
 20
-136.3753085654
 10
511.5107348829
 20
-131.4785778309
 10
511.6262537689
 20
-126.6999148651
  0
LWPOLYLINE
  5
FB
330
1F
100
AcDbEntity
  8
0
  6
Continuous
 62
     7
370
    25
100
AcDbPolyline
 90
       15
 70
   128
 43
0.0
 10
737.9004237486
 20
-257.3252127567
 10
737.7849048626
 20
-252.6799250576
 10
737.4387182466
 20
-248.1828928822
 10
736.8629728405
 20
-243.8485215803
 10
736.0595129305
 20
-239.6906954498
 10
735.030912241
 20
-235.7227332615
 10
733.7804656899
 20
-231.9573455943
 10
732.3121788347
 20
-228.4065941202
 10
730.6307550407
 20
-225.0818529666
 10
728.7415804153
 20
-221.9937722817
 10
726.6507065544
 20
-219.152244119
 10
724.3648311572
 20
-216.5663707498
 10
721.8912765718
 20
-214.2444355061
 10
719.2379663392
 20
-212.1938762465
 10
716.771387432
 20
-210.6250424968
  0
LWPOLYLINE
  5
FC
330
1F
100
AcDbEntity
  8
0
  6
Continuous
 62
     7
370
    25
100
AcDbPolyline
 90
       43
 70
   128
 43
0.0
 10
614.7796767031
 20
-387.2990104225
 10
616.6113618647
 20
-388.2830598035
 10
619.6756843957
 20
-389.628394327
 10
622.8876786367
 20
-390.6832971406
 10
626.2370556019
 20
-391.4443890725
 10
629.7130862271
 20
-391.9092321158
 10
633.3046357382
 20
-392.0763372381
 10
637.0001993195
 20
-391.9451691513
 10
640.7879389666
 20
-391.5161480263
 10
644.6557214075
 20
-390.7906481473
 10
648.5911569691
 20
-389.7709935088
 10
652.5816392648
 20
-388.4604503723
 10
656.6143855768
 20
-386.8632168025
 10
660.6764778028
 20
-384.9844092199
 10
664.7549038369
 20
-382.8300460117
 10
668.8365992509
 20
-380.4070282528
 10
672.9084891439
 20
-377.7231175995
 10
676.957530025
 20
-374.7869114267
 10
680.9707515955
 20
-371.6078152881
 10
684.9352982968
 20
-368.1960127869
 10
688.8384704908
 20
-364.5624329552
 10
692.6677651401
 20
-360.7187152446
 10
696.4109158595
 20
-356.6771722417
 10
700.0559322088
 20
-352.4507502272
 10
703.5911381017
 20
-348.0529877049
 10
707.0052092081
 20
-343.4979720341
 10
710.2872092288
 20
-338.8002943031
 10
713.4266249285
 20
-333.9750025899
 10
716.4133998121
 20
-329.0375537587
 10
719.2379663392
 20
-324.0037639464
 10
721.8912765718
 20
-318.8897578996
 10
724.3648311572
 20
-313.7119173212
 10
726.6507065544
 20
-308.4868283957
 10
728.7415804153
 20
-303.2312286581
 10
730.6307550407
 20
-297.9619533787
 10
732.3121788347
 20
-292.695881635
 10
733.7804656899
 20
-287.4498822422
 10
735.030912241
 20
-282.240759718
 10
736.0595129305
 20
-277.0852004522
 10
736.8629728405
 20
-271.9997192554
 10
737.4387182466
 20
-267.0006064571
 10
737.7849048626
 20
-262.1038757226
 10
737.9004237486
 20
-257.3252127567
  0
LWPOLYLINE
  5
FD
330
1F
100
AcDbEntity
  8
0
  6
Continuous
 62
     7
370
    25
100
AcDbPolyline
 90
       99
 70
   128
 43
0.0
 10
496.0699045828
 20
-135.6804040951
 10
495.9536784453
 20
-131.5622240609
 10
495.6054776309
 20
-127.5951583537
 10
495.0267329714
 20
-123.7955084977
 10
494.2198226528
 20
-120.1788880689
 10
493.1880624427
 20
-116.7601585366
 10
491.9356920651
 20
-113.5533681937
 10
490.4678577784
 20
-110.5716944296
 10
488.7905912287
 20
-107.8273895813
 10
486.9107846639
 20
-105.3317305861
 10
484.8361626125
 20
-103.0949726421
 10
482.5752501415
 20
-101.1263070676
 10
480.1373378251
 20
-99.4338235316
 10
477.532443568
 20
-98.024476812
 10
474.7712714395
 20
-96.9040582168
 10
471.8651676881
 20
-96.0771717863
 10
468.8260741174
 20
-95.5472153743
 10
465.6664790149
 20
-95.3163666853
 10
462.3993658345
 20
-95.3855743261
 10
459.0381598452
 20
-95.7545539077
 10
455.5966729632
 20
-96.4217892137
 10
452.0890469964
 20
-97.3845384313
 10
448.5296955323
 20
-98.6388454173
 10
444.9332447094
 20
-100.1795559554
 10
441.3144731158
 20
-102.0003389354
 10
437.68825106
 20
-104.0937123695
 10
434.0694794663
 20
-106.4510741372
 10
430.4730286435
 20
-109.0627373334
 10
426.9136771794
 20
-111.9179700739
 10
423.4060512126
 20
-115.0050395947
 10
419.9645643306
 20
-118.3112604652
 10
416.6033583412
 20
-121.8230467146
 10
413.3362451609
 20
-125.5259676598
 10
410.1766500584
 20
-129.4048072045
 10
407.1375564877
 20
-133.4436263649
 10
404.2314527363
 20
-137.6258287669
 10
401.4702806078
 20
-141.9342288436
 10
398.8653863507
 20
-146.351122455
 10
396.4274740343
 20
-150.8583596377
 10
394.1665615632
 20
-155.4374191876
 10
392.0919395118
 20
-160.0694847665
 10
390.2121329471
 20
-164.7355222236
 10
388.5348663973
 20
-169.41635781
 10
387.0670321107
 20
-174.0927569682
 10
385.8146617331
 20
-178.7455033711
 10
384.7829015229
 20
-183.3554778857
 10
383.9759912044
 20
-187.9037371378
 10
383.3972465449
 20
-192.3715913545
 10
383.0490457305
 20
-196.7406811647
 10
382.932819593
 20
-200.9930530409
 10
383.0490457305
 20
-205.1112330752
 10
383.3972465449
 20
-209.0782987823
 10
383.9759912044
 20
-212.8779486384
 10
384.7829015229
 20
-216.4945690671
 10
385.8146617331
 20
-219.9132985994
 10
387.0670321107
 20
-223.1200889423
 10
388.5348663973
 20
-226.1017627065
 10
390.2121329471
 20
-228.8460675548
 10
392.0919395118
 20
-231.34172655
 10
394.1665615632
 20
-233.5784844939
 10
396.4274740343
 20
-235.5471500685
 10
398.8653863507
 20
-237.2396336045
 10
401.4702806078
 20
-238.6489803241
 10
404.2314527363
 20
-239.7693989192
 10
407.1375564877
 20
-240.5962853497
 10
410.1766500584
 20
-241.1262417617
 10
413.3362451609
 20
-241.3570904507
 10
416.6033583412
 20
-241.2878828099
 10
419.9645643306
 20
-240.9189032284
 10
423.4060512126
 20
-240.2516679223
 10
426.9136771794
 20
-239.2889187048
 10
430.4730286435
 20
-238.0346117187
 10
434.0694794663
 20
-236.4939011807
 10
437.68825106
 20
-234.6731182007
 10
441.3144731158
 20
-232.5797447666
 10
444.9332447094
 20
-230.2223829988
 10
448.5296955323
 20
-227.6107198026
 10
452.0890469964
 20
-224.7554870622
 10
455.5966729632
 20
-221.6684175413
 10
459.0381598452
 20
-218.3621966708
 10
462.3993658345
 20
-214.8504104215
 10
465.6664790149
 20
-211.1474894762
 10
468.8260741174
 20
-207.2686499315
 10
471.8651676881
 20
-203.2298307711
 10
474.7712714395
 20
-199.0476283692
 10
477.532443568
 20
-194.7392282925
 10
480.1373378251
 20
-190.3223346811
 10
482.5752501415
 20
-185.8150974983
 10
484.8361626125
 20
-181.2360379485
 10
486.9107846639
 20
-176.6039723695
 10
488.7905912287
 20
-171.9379349124
 10
490.4678577784
 20
-167.2570993261
 10
491.9356920651
 20
-162.5807001678
 10
493.1880624427
 20
-157.9279537649
 10
494.2198226528
 20
-153.3179792504
 10
495.0267329714
 20
-148.7697199983
 10
495.6054776309
 20
-144.3018657815
 10
495.9536784453
 20
-139.9327759714
 10
496.0699045828
 20
-135.6804040951
  0
LWPOLYLINE
  5
FE
330
1F
100
AcDbEntity
  8
0
  6
Continuous
 62
     7
370
    25
100
AcDbPolyline
 90
       57
 70
   128
 43
0.0
 10
689.6050305936
 20
-175.5619403576
 10
689.4907648207
 20
-173.1463905306
 10
689.1494044604
 20
-170.6292891909
 10
688.5852423173
 20
-168.0422903485
 10
687.8053730577
 20
-165.4179270147
 10
686.8196039899
 20
-162.7892020812
 10
685.6403317321
 20
-160.1891732892
 10
684.2823863171
 20
-157.6505375094
 10
682.7628446963
 20
-155.2052195596
 10
681.1008159873
 20
-152.8839707319
 10
679.3172011654
 20
-150.7159820771
 10
677.434430222
 20
-148.7285173104
 10
675.4761800939
 20
-146.9465699545
 10
673.4670769129
 20
-145.3925490312
 10
671.4323863171
 20
-144.0859972553
 10
669.3976957212
 20
-143.0433452734
 10
667.3885925402
 20
-142.2777050393
 10
665.4303424122
 20
-141.7987049231
 10
663.5475714687
 20
-141.6123686291
 10
661.7639566469
 20
-141.7210394444
 10
660.1019279379
 20
-142.1233507704
 10
658.5823863171
 20
-142.8142433088
 10
657.224440902
 20
-143.785028685
 10
656.0451686442
 20
-145.0234987097
 10
655.0593995765
 20
-146.5140789037
 10
654.2795303169
 20
-148.2380243563
 10
653.7153681738
 20
-150.1736554531
 10
653.3740078135
 20
-152.29663051
 10
653.2597420406
 20
-154.5802518838
 10
653.3740078135
 20
-156.9958017109
 10
653.7153681738
 20
-159.5129030505
 10
654.2795303169
 20
-162.099901893
 10
655.0593995765
 20
-164.7242652267
 10
656.0451686442
 20
-167.3529901603
 10
657.224440902
 20
-169.9530189522
 10
658.5823863171
 20
-172.4916547321
 10
660.1019279379
 20
-174.9369726818
 10
661.7639566469
 20
-177.2582215095
 10
663.5475714687
 20
-179.4262101643
 10
665.4303424122
 20
-181.413674931
 10
667.3885925402
 20
-183.195622287
 10
669.3976957212
 20
-184.7496432103
 10
671.4323863171
 20
-186.0561949862
 10
673.4670769129
 20
-187.098846968
 10
675.4761800939
 20
-187.8644872022
 10
677.434430222
 20
-188.3434873184
 10
679.3172011654
 20
-188.5298236124
 10
681.1008159873
 20
-188.4211527971
 10
682.7628446963
 20
-188.0188414711
 10
684.2823863171
 20
-187.3279489327
 10
685.6403317321
 20
-186.3571635564
 10
686.8196039899
 20
-185.1186935317
 10
687.8053730577
 20
-183.6281133377
 10
688.5852423173
 20
-181.9041678851
 10
689.1494044604
 20
-179.9685367884
 10
689.4907648207
 20
-177.8455617315
 10
689.6050305936
 20
-175.5619403576
  0
LWPOLYLINE
  5
FF
330
1F
100
AcDbEntity
  8
0
  6
Continuous
 62
     7
370
    25
100
AcDbPolyline
 90
       63
 70
   128
 43
0.0
 10
693.7062499244
 20
-177.9295238819
 10
693.5919699335
 20
-175.2613974386
 10
693.2503026279
 20
-172.488704714
 10
692.6847539766
 20
-169.6398972876
 10
691.901127274
 20
-166.7442077787
 10
690.9074635906
 20
-163.8313498801
 10
689.7139592604
 20
-160.9312134556
 10
688.3328612529
 20
-158.0735578293
 10
686.7783415026
 20
-155.2877064151
 10
685.0663514856
 20
-152.6022458184
 10
683.2144585363
 20
-150.0447324988
 10
681.2416655823
 20
-147.6414100038
 10
679.1682161491
 20
-145.4169396746
 10
677.0153866334
 20
-143.3941475868
 10
674.8052679796
 20
-141.5937903246
 10
672.5605389956
 20
-140.0343419897
 10
670.3042336385
 20
-138.7318046324
 10
668.0595046546
 20
-137.6995440484
 10
665.8493860007
 20
-136.9481526284
 10
663.6965564851
 20
-136.485340665
 10
661.6231070518
 20
-136.3158572353
 10
659.6503140978
 20
-136.4414414686
 10
657.7984211485
 20
-136.8608047008
 10
656.0864311316
 20
-137.5696436975
 10
654.5319113812
 20
-138.5606848116
 10
653.1508133737
 20
-139.8237586199
 10
651.9573090435
 20
-141.3459042762
 10
650.9636453601
 20
-143.1115025061
 10
650.1800186576
 20
-145.1024358825
 10
649.6144700063
 20
-147.2982747349
 10
649.2728027007
 20
-149.6764867852
 10
649.1585227097
 20
-152.2126683595
 10
649.2728027007
 20
-154.8807948029
 10
649.6144700063
 20
-157.6534875275
 10
650.1800186576
 20
-160.5022949538
 10
650.9636453601
 20
-163.3979844628
 10
651.9573090435
 20
-166.3108423614
 10
653.1508133737
 20
-169.2109787859
 10
654.5319113812
 20
-172.0686344121
 10
656.0864311316
 20
-174.8544858263
 10
657.7984211485
 20
-177.5399464231
 10
659.6503140978
 20
-180.0974597427
 10
661.6231070518
 20
-182.5007822376
 10
663.6965564851
 20
-184.7252525669
 10
665.8493860007
 20
-186.7480446546
 10
668.0595046546
 20
-188.5484019169
 10
670.3042336385
 20
-190.1078502517
 10
672.5605389956
 20
-191.4103876091
 10
674.8052679796
 20
-192.442648193
 10
677.0153866334
 20
-193.1940396131
 10
679.1682161491
 20
-193.6568515764
 10
681.2416655823
 20
-193.8263350061
 10
683.2144585363
 20
-193.7007507728
 10
685.0663514856
 20
-193.2813875407
 10
686.7783415026
 20
-192.5725485439
 10
688.3328612529
 20
-191.5815074299
 10
689.7139592604
 20
-190.3184336215
 10
690.9074635906
 20
-188.7962879653
 10
691.901127274
 20
-187.0306897354
 10
692.6847539766
 20
-185.0397563589
 10
693.2503026279
 20
-182.8439175065
 10
693.5919699335
 20
-180.4657054562
 10
693.7062499244
 20
-177.9295238819
  0
LWPOLYLINE
  5
100
330
1F
100
AcDbEntity
  8
0
  6
Continuous
 62
     7
370
    25
100
AcDbPolyline
 90
       17
 70
   128
 43
0.0
 10
452.1582163374
 20
-74.4340044009
 10
452.1351246643
 20
-74.1060408561
 10
451.8498813361
 20
-73.2478755782
 10
451.2517431898
 20
-72.4451723658
 10
450.3686785003
 20
-71.7354647289
 10
449.2419783911
 20
-71.1519378079
 10
447.9243261071
 20
-70.721876673
 10
446.4773336045
 20
-70.4653905049
 10
444.9686606446
 20
-70.3944723118
 10
443.4688510983
 20
-70.5124381496
 10
442.0480343929
 20
-70.8137720668
 10
440.7726463385
 20
-71.2843840243
 10
439.7023226631
 20
-71.9022687301
 10
438.8871105121
 20
-72.638534582
 10
438.3651282996
 20
-73.4587546071
 10
438.1607833338
 20
-74.3245762287
 10
438.1582163374
 20
-74.4340044009
  0
ENDSEC
  0
SECTION
  2
OBJECTS
  0
DICTIONARY
  5
C
330
0
100
AcDbDictionary
281
     1
  3
ACAD_GROUP
350
D
  3
ACAD_LAYOUT
350
1A
  3
ACAD_MLINESTYLE
350
17
  3
ACAD_PLOTSETTINGS
350
19
  3
ACAD_PLOTSTYLENAME
350
E
  3
ACAD_SCALELIST
350
47
  3
DWGPROPS
350
101
  0
DICTIONARY
  5
D
102
{ACAD_REACTORS
330
C
102
}
330
C
100
AcDbDictionary
281
     1
  0
DICTIONARY
  5
1A
102
{ACAD_REACTORS
330
C
102
}
330
C
100
AcDbDictionary
281
     1
  3
Layout1
350
1E
  3
Layout2
350
26
  3
Model
350
22
  0
DICTIONARY
  5
17
102
{ACAD_REACTORS
330
C
102
}
330
C
100
AcDbDictionary
281
     1
  3
Standard
350
18
  0
DICTIONARY
  5
19
102
{ACAD_REACTORS
330
C
102
}
330
C
100
AcDbDictionary
281
     1
  0
ACDBDICTIONARYWDFLT
  5
E
102
{ACAD_REACTORS
330
C
102
}
330
C
100
AcDbDictionary
281
     1
  3
Normal
350
F
100
AcDbDictionaryWithDefault
340
F
  0
DICTIONARY
  5
47
102
{ACAD_REACTORS
330
C
102
}
330
C
100
AcDbDictionary
281
     1
  3
A0
350
48
  3
A1
350
49
  3
A2
350
4A
  3
A3
350
4B
  3
A4
350
4C
  3
A5
350
4D
  3
A6
350
4E
  3
A7
350
4F
  3
A8
350
50
  3
A9
350
51
  3
B0
350
52
  3
B1
350
53
  3
B2
350
54
  3
B3
350
55
  3
B4
350
56
  3
B5
350
57
  3
B6
350
58
  3
B7
350
59
  3
B8
350
5A
  3
B9
350
5B
  3
C0
350
5C
  3
C1
350
5D
  3
C2
350
5E
  3
C3
350
5F
  3
C4
350
60
  3
C5
350
61
  3
C6
350
62
  3
C7
350
63
  3
C8
350
64
  3
C9
350
65
  3
D0
350
66
  3
D1
350
67
  3
D2
350
68
  0
XRECORD
  5
101
102
{ACAD_REACTORS
330
C
102
}
330
C
100
AcDbXrecord
280
     1
  1
DWGPROPS COOKIE
  2

  3

  4

  6

  7

  8
b.kav
  9

300
=
301
=
302
=
303
=
304
=
305
=
306
=
307
=
308
=
309
=
 40
0.0
 41
2459741.481177708
 42
2459741.481177882
  1

 90
        0
  0
LAYOUT
  5
1E
102
{ACAD_REACTORS
330
1A
102
}
330
1A
100
AcDbPlotSettings
  1

  2
none_device
  4

  6

 40
0.0
 41
0.0
 42
0.0
 43
0.0
 44
0.0
 45
0.0
 46
0.0
 47
0.0
 48
0.0
 49
0.0
140
0.0
141
0.0
142
1.0
143
1.0
 70
   688
 72
     1
 73
     0
 74
     5
  7

 75
    16
147
1.0
148
0.0
149
0.0
100
AcDbLayout
  1
Layout1
 70
     1
 71
     1
 10
0.0
 20
0.0
 11
420.0
 21
297.0
 12
0.0
 22
0.0
 32
0.0
 14
1.0000000000E+20
 24
1.0000000000E+20
 34
1.0000000000E+20
 15
-1.0000000000E+20
 25
-1.0000000000E+20
 35
-1.0000000000E+20
146
0.0
 13
0.0
 23
0.0
 33
0.0
 16
1.0
 26
0.0
 36
0.0
 17
0.0
 27
1.0
 37
0.0
 76
     0
330
1B
  0
LAYOUT
  5
26
102
{ACAD_REACTORS
330
1A
102
}
330
1A
100
AcDbPlotSettings
  1

  2
none_device
  4

  6

 40
0.0
 41
0.0
 42
0.0
 43
0.0
 44
0.0
 45
0.0
 46
0.0
 47
0.0
 48
0.0
 49
0.0
140
0.0
141
0.0
142
1.0
143
1.0
 70
   688
 72
     1
 73
     0
 74
     5
  7

 75
    16
147
1.0
148
0.0
149
0.0
100
AcDbLayout
  1
Layout2
 70
     1
 71
     2
 10
0.0
 20
0.0
 11
0.0
 21
0.0
 12
0.0
 22
0.0
 32
0.0
 14
0.0
 24
0.0
 34
0.0
 15
0.0
 25
0.0
 35
0.0
146
0.0
 13
0.0
 23
0.0
 33
0.0
 16
1.0
 26
0.0
 36
0.0
 17
0.0
 27
1.0
 37
0.0
 76
     0
330
23
  0
LAYOUT
  5
22
102
{ACAD_REACTORS
330
1A
102
}
330
1A
100
AcDbPlotSettings
  1

  2
none_device
  4
Letter_(8.50_x_11.00_Inches)
  6

 40
6.35
 41
6.35
 42
6.35000508
 43
6.35000508
 44
215.9
 45
279.4
 46
0.0
 47
0.0
 48
0.0
 49
0.0
140
0.0
141
0.0
142
1.0
143
1.0
 70
  1712
 72
     1
 73
     0
 74
     0
  7

 75
     0
147
1.0
148
0.0
149
0.0
100
AcDbLayout
  1
Model
 70
     1
 71
     0
 10
0.0
 20
0.0
 11
279.4
 21
215.9
 12
0.0
 22
0.0
 32
0.0
 14
0.0
 24
0.0
 34
0.0
 15
279.4
 25
215.9
 35
0.0
146
0.0
 13
0.0
 23
0.0
 33
0.0
 16
1.0
 26
0.0
 36
0.0
 17
0.0
 27
1.0
 37
0.0
 76
     0
330
1F
331
29
  0
MLINESTYLE
  5
18
102
{ACAD_REACTORS
330
17
102
}
330
17
100
AcDbMlineStyle
  2
Standard
 70
     0
  3

 62
   256
 51
90.0
 52
90.0
 71
     2
 49
0.5
 62
   256
  6
BYLAYER
 49
-0.5
 62
   256
  6
BYLAYER
  0
ACDBPLACEHOLDER
  5
F
102
{ACAD_REACTORS
330
E
102
}
330
E
  0
SCALE
  5
48
102
{ACAD_REACTORS
330
47
102
}
330
47
100
AcDbScale
 70
     0
300
1:1
140
1.0
141
1.0
290
     1
  0
SCALE
  5
49
102
{ACAD_REACTORS
330
47
102
}
330
47
100
AcDbScale
 70
     0
300
1:2
140
1.0
141
2.0
290
     0
  0
SCALE
  5
4A
102
{ACAD_REACTORS
330
47
102
}
330
47
100
AcDbScale
 70
     0
300
1:4
140
1.0
141
4.0
290
     0
  0
SCALE
  5
4B
102
{ACAD_REACTORS
330
47
102
}
330
47
100
AcDbScale
 70
     0
300
1:5
140
1.0
141
5.0
290
     0
  0
SCALE
  5
4C
102
{ACAD_REACTORS
330
47
102
}
330
47
100
AcDbScale
 70
     0
300
1:8
140
1.0
141
8.0
290
     0
  0
SCALE
  5
4D
102
{ACAD_REACTORS
330
47
102
}
330
47
100
AcDbScale
 70
     0
300
1:10
140
1.0
141
10.0
290
     0
  0
SCALE
  5
4E
102
{ACAD_REACTORS
330
47
102
}
330
47
100
AcDbScale
 70
     0
300
1:16
140
1.0
141
16.0
290
     0
  0
SCALE
  5
4F
102
{ACAD_REACTORS
330
47
102
}
330
47
100
AcDbScale
 70
     0
300
1:20
140
1.0
141
20.0
290
     0
  0
SCALE
  5
50
102
{ACAD_REACTORS
330
47
102
}
330
47
100
AcDbScale
 70
     0
300
1:30
140
1.0
141
30.0
290
     0
  0
SCALE
  5
51
102
{ACAD_REACTORS
330
47
102
}
330
47
100
AcDbScale
 70
     0
300
1:40
140
1.0
141
40.0
290
     0
  0
SCALE
  5
52
102
{ACAD_REACTORS
330
47
102
}
330
47
100
AcDbScale
 70
     0
300
1:50
140
1.0
141
50.0
290
     0
  0
SCALE
  5
53
102
{ACAD_REACTORS
330
47
102
}
330
47
100
AcDbScale
 70
     0
300
1:100
140
1.0
141
100.0
290
     0
  0
SCALE
  5
54
102
{ACAD_REACTORS
330
47
102
}
330
47
100
AcDbScale
 70
     0
300
2:1
140
2.0
141
1.0
290
     0
  0
SCALE
  5
55
102
{ACAD_REACTORS
330
47
102
}
330
47
100
AcDbScale
 70
     0
300
4:1
140
4.0
141
1.0
290
     0
  0
SCALE
  5
56
102
{ACAD_REACTORS
330
47
102
}
330
47
100
AcDbScale
 70
     0
300
8:1
140
8.0
141
1.0
290
     0
  0
SCALE
  5
57
102
{ACAD_REACTORS
330
47
102
}
330
47
100
AcDbScale
 70
     0
300
10:1
140
10.0
141
1.0
290
     0
  0
SCALE
  5
58
102
{ACAD_REACTORS
330
47
102
}
330
47
100
AcDbScale
 70
     0
300
100:1
140
100.0
141
1.0
290
     0
  0
SCALE
  5
59
102
{ACAD_REACTORS
330
47
102
}
330
47
100
AcDbScale
 70
     0
300
1/128" = 1'-0"
140
0.0078125
141
12.0
290
     0
  0
SCALE
  5
5A
102
{ACAD_REACTORS
330
47
102
}
330
47
100
AcDbScale
 70
     0
300
1/64" = 1'-0"
140
0.015625
141
12.0
290
     0
  0
SCALE
  5
5B
102
{ACAD_REACTORS
330
47
102
}
330
47
100
AcDbScale
 70
     0
300
1/32" = 1'-0"
140
0.03125
141
12.0
290
     0
  0
SCALE
  5
5C
102
{ACAD_REACTORS
330
47
102
}
330
47
100
AcDbScale
 70
     0
300
1/16" = 1'-0"
140
0.0625
141
12.0
290
     0
  0
SCALE
  5
5D
102
{ACAD_REACTORS
330
47
102
}
330
47
100
AcDbScale
 70
     0
300
3/32" = 1'-0"
140
0.09375
141
12.0
290
     0
  0
SCALE
  5
5E
102
{ACAD_REACTORS
330
47
102
}
330
47
100
AcDbScale
 70
     0
300
1/8" = 1'-0"
140
0.125
141
12.0
290
     0
  0
SCALE
  5
5F
102
{ACAD_REACTORS
330
47
102
}
330
47
100
AcDbScale
 70
     0
300
3/16" = 1'-0"
140
0.1875
141
12.0
290
     0
  0
SCALE
  5
60
102
{ACAD_REACTORS
330
47
102
}
330
47
100
AcDbScale
 70
     0
300
1/4" = 1'-0"
140
0.25
141
12.0
290
     0
  0
SCALE
  5
61
102
{ACAD_REACTORS
330
47
102
}
330
47
100
AcDbScale
 70
     0
300
3/8" = 1'-0"
140
0.375
141
12.0
290
     0
  0
SCALE
  5
62
102
{ACAD_REACTORS
330
47
102
}
330
47
100
AcDbScale
 70
     0
300
1/2" = 1'-0"
140
0.5
141
12.0
290
     0
  0
SCALE
  5
63
102
{ACAD_REACTORS
330
47
102
}
330
47
100
AcDbScale
 70
     0
300
3/4" = 1'-0"
140
0.75
141
12.0
290
     0
  0
SCALE
  5
64
102
{ACAD_REACTORS
330
47
102
}
330
47
100
AcDbScale
 70
     0
300
1" = 1'-0"
140
1.0
141
12.0
290
     0
  0
SCALE
  5
65
102
{ACAD_REACTORS
330
47
102
}
330
47
100
AcDbScale
 70
     0
300
1-1/2" = 1'-0"
140
1.5
141
12.0
290
     0
  0
SCALE
  5
66
102
{ACAD_REACTORS
330
47
102
}
330
47
100
AcDbScale
 70
     0
300
3" = 1'-0"
140
3.0
141
12.0
290
     0
  0
SCALE
  5
67
102
{ACAD_REACTORS
330
47
102
}
330
47
100
AcDbScale
 70
     0
300
6" = 1'-0"
140
6.0
141
12.0
290
     0
  0
SCALE
  5
68
102
{ACAD_REACTORS
330
47
102
}
330
47
100
AcDbScale
 70
     0
300
1'-0" = 1'-0"
140
12.0
141
12.0
290
     0
  0
ENDSEC
  0
EOF
